Сайт для бас гитаристов
Новости о бас гитаре Уроки для бас гитаристов Статьи на басовые темы Форум для бас гитаристов BassLife подкасты
Подпишись на наш telegram канал @basslife



Как вы помните, арпеджио - это такой способ игры, когда в каждый момент времени звучит только одна нота. Причем звучание непрерывно и ноты как бы перетекают друг в друга. На этом уроке я познакомлю вас с несколькими аппликатурами, которые вы легко сможете использовать при построении своих басовых линий. Игра арпеджио способствует развитию слуха. Вы запоминаете интервалы между нотами. Кроме того, игра предложенных примеров поможет вам развить технику левой и правой руки. Практика показывает, что у начинающих бас гитаристов возникают затруднения при игре партий, ноты которых расположены на разных струнах. Когда будете играть, особое внимание уделите чистоте игры. Пальцы левой руки должны четко фиксировать струну. Она не должна звенеть. Пальцы правой руки должны четко чередоваться. Не допускайте случая, когда две подряд идущие ноты играются одним пальцем.

Рассмотрим аппликатуру. Будем играть арпеджио. Пусть основная нота расположена на второй струне. Цифрами обозначены пальцы, которыми зажимаются струны. (1-указательный, 2-средний, 3-безымянный, 4-мизинец.) Красным цветом обозначена основная нота. Именно основная нота определяет название арпеджио. Используя эту аппликатуру, вы можете легко играть арпеджио для любой ноты, просто перемещая руку по грифу.

i i+1 i+2 i+3 - Номер лада
|--1--|-----|-----|-----| - Первая струна
|-----|-----|--3--|-----|
|-----|-----|-----|--4--|
|--1--|-----|-----|--4--| - Четвертая струна

Когда основная нота арпеджио не является самой низкой нотой аппликатуры, вы можете играть арпеджио двумя способами.

1.) Начните играть с самой низкой основной ноты и проделайте путь к самой низкой ноте аппликатуры, затем поднимитесь до самой высокой ноты, а потом опять спуститесь к основной ноте. Ниже показано как играется арпеджио на пятом ладу. Это арпеджио F мажор.

G:--------------5------|
D:------------7---7----|
A:--8-------8-------8--|
E:----8-5-8------------|

2.) Играйте арпеджио начиная с самой низкой ноты, поднимитесь до самой высокой, а затем снова вернитесь к самой низкой ноте. чтобы выделить основные ноты Вы можете задерживаться на них.

G:----------5----------|
D:--------7---7--------|
A:------8-------8------|
E:--5-8-----------8-5--|

Функции аккордов.

Аккордовые функции представляют собой набор цифр, каждая из которых обозначает номер ноты в мажорной гамме. Посмотрите на приведенные ниже схемы и вам все станет понятно.

Мажорная функция аккордов

G A B C D E F = Ноты гаммы G мажор
1 2 3 4 5 6 7
| | |
G B D = Ноты аккорда G
1 3 5 = Функция аккорда (формула аккорда)

Минорная функция аккордов

G A B C D E F = Ноты гаммы G мажор
1 2 3 4 5 6 7
| | |
G Bb D = Ноты аккорда Gm
1 3b 5 = Функция аккорда (формула аккорда)

Sus2 функция аккордов

G A B C D E F = Ноты гаммы G мажор
1 2 3 4 5 6 7
| | |
G A D = Ноты аккорда Gsus2
1 2 5 = Функция аккорда (формула аккорда)

Упражнения

Я предлагаю вам несколько упражнений для практики. В левой колонке приводятся аппликатуры (цифрами обозначены пальцы). В правой колонке цифры обозначают ноты из функции аккордов. Выполните упражнения, играя арпеджио аккордов двумя способами.

Мажорные арпеджио

Основная нота на четвертой струне

Апликатура

Функция аккорда

|-----|--2--|-----|-----|-----|
|-----|-----|--3--|-----|-----|
|-----|-----|--3--|-----|-----|
|--1--|-----|-----|-----|--4--|

|-----|--3--|-----|-----|-----|
|-----|-----|--1--|-----|-----|
|-----|-----|--5--|-----|-----|
|--1--|-----|-----|-----|--3--|

 

|-----|-----|--3--|-----|
|-----|-----|-----|--4--|
|--1--|-----|-----|--4--|
|-----|--2--|-----|-----|

|-----|-----|--3--|-----|
|-----|-----|-----|--1--|
|--3--|-----|-----|--5--|
|-----|--1--|-----|-----|

 

|--1--|-----|-----|-----|
|--1--|-----|-----|-----|
|-----|-----|--3--|-----|
|-----|-----|-----|--4--|

|--1--|-----|-----|-----|
|--5--|-----|-----|-----|
|-----|-----|--3--|-----|
|-----|-----|-----|--1--|


Основная нота на третьей струне

Апликатура

Функция аккорда

|-----|-----|--2--|-----|-----|
|-----|-----|--2--|-----|-----|
|--1--|-----|-----|-----|--4--|
|--1--|-----|-----|-----|-----|

|-----|-----|--1--|-----|-----|
|-----|-----|--5--|-----|-----|
|--1--|-----|-----|-----|--3--|
|--5--|-----|-----|-----|-----|

 

|-----|-----|-----|--4--|
|--1--|-----|-----|--4--|
|-----|--2--|-----|-----|
|-----|--2--|-----|-----|

|-----|-----|-----|--1--|
|--3--|-----|-----|--5--|
|-----|--1--|-----|-----|
|-----|--5--|-----|-----|

 

|--1--|-----|-----|-----|
|-----|-----|--3--|-----|
|-----|-----|-----|--4--|
|--1--|-----|-----|--4--|

|--5--|-----|-----|-----|
|-----|-----|--3--|-----|
|-----|-----|-----|--1--|
|--3--|-----|-----|--5--|


Основная нота на второй струне

Апликатура

Функция аккорда

|--1--|-----|-----|--4--|-----|
|-----|--2--|-----|-----|-----|
|-----|--2--|-----|-----|-----|
|-----|-----|-----|--4--|-----|

|--3--|-----|-----|--5--|-----|
|-----|--1--|-----|-----|-----|
|-----|--5--|-----|-----|-----|
|-----|-----|-----|--3--|-----|

Минорные арпеджио

Основная нота на четвертой струне

Апликатура

Функция аккорда

|--1--|-----|-----|-----|
|-----|-----|--3--|-----|
|-----|-----|--3--|-----|
|--1--|-----|-----|--4--|

|-3--|-----|-----|-----|
|-----|-----|--1--|-----|
|-----|-----|--5--|-----|
|--1--|-----|-----|-3--|

 

|-----|-----|--2--|-----|-----|
|-----|-----|-----|-----|--4--|
|--1--|-----|-----|-----|--4--|
|-----|-----|--2--|-----|-----|

|-----|-----|-3--|-----|-----|
|-----|-----|-----|-----|--1--|
|-3--|-----|-----|-----|--5--|
|-----|-----|--1--|-----|-----|

|--1--|-----|-----|--4--|
|--1--|-----|-----|-----|
|-----|--2--|-----|-----|
|-----|-----|-----|--4--|

|--1--|-----|-----|-3--|
|--5--|-----|-----|-----|
|-----|-3--|-----|-----|
|-----|-----|-----|--1--|

 

Основная нота на третьей струне

Апликатура

Функция аккорда

|-----|-----|--3--|-----|
|-----|-----|--3--|-----|
|--1--|-----|-----|--4--|
|--1--|-----|-----|-----|

|-----|-----|--1--|-----|
|-----|-----|--5--|-----|
|--1--|-----|-----|-3--|
|--5--|-----|-----|-----|

 

|-----|-----|-----|-----|--4--|
|--1--|-----|-----|-----|--4--|
|-----|-----|--2--|-----|-----|
|-----|-----|--2--|-----|-----|

|-----|-----|-----|-----|--1--|
|-3--|-----|-----|-----|--5--|
|-----|-----|--1--|-----|-----|
|-----|-----|--5--|-----|-----|

|-----|--1--|-----|-----|-----|
|-----|-----|--2--|-----|-----|
|-----|-----|-----|-----|--4--|
|--1--|-----|-----|-----|--4--|

|-----|--5--|-----|-----|-----|
|-----|-----|-3--|-----|-----|
|-----|-----|-----|-----|--1--|
|-3--|-----|-----|-----|--5--|

 

Основная нота на второй струне

Апликатура

Функция аккорда

|-----|-----|--3--|-----|
|--1--|-----|-----|--4--|
|--1--|-----|-----|-----|
|-----|--2--|-----|-----|

|-----|-----|--5--|-----|
|--1--|-----|-----|-3--|
|--5--|-----|-----|-----|
|-----|-3--|-----|-----|

sus2 арпеджио

Основная нота на четвертой струне

Апликатура

Функция аккорда

|--1--|-----|-----|-----|
|-----|-----|-----|--4--|
|-----|-----|-----|--4--|
|-----|--2--|-----|--4--|

|--2--|-----|-----|-----|
|-----|-----|-----|--1--|
|-----|-----|-----|--5--|
|-----|--1--|-----|--2--|

|--1--|-----|-----|-----|
|--1--|-----|-----|-----|
|--1--|-----|-----|-----|
|-----|-----|-----|--4--|

|--1--|-----|-----|-----|
|--5--|-----|-----|-----|
|--2--|-----|-----|-----|
|-----|-----|-----|--1--|


Основная нота на третьей струне

Апликатура

Функция аккорда

|-----|-----|--3--|-----|
|-----|-----|--3--|-----|
|--1--|-----|--3--|-----|
|--1--|-----|-----|-----|

|-----|-----|--1--|-----|
|-----|-----|--5--|-----|
|--1--|-----|--2--|-----|
|--5--|-----|-----|-----|

 

|--1--|-----|-----|-----|
|--1--|-----|-----|-----|
|-----|-----|-----|--4--|
|-----|-----|-----|--4--|

|--5--|-----|-----|-----|
|--2--|-----|-----|-----|
|-----|-----|-----|--1--|
|-----|-----|-----|--5--|

Основная нота на второй струне

Апликатура

Функция аккорда

|-----|-----|--3--|-----|
|--1--|-----|--3--|-----|
|--1--|-----|-----|-----|
|--2--|-----|-----|-----|

|-----|-----|--5--|-----|
|--1--|-----|--2--|-----|
|--5--|-----|-----|-----|
|--2--|-----|-----|-----|


Youtube VK Twitter






Rambler's Top100