Сайт для бас гитаристов
Новости о бас гитаре Уроки для бас гитаристов Статьи на басовые темы Форум для бас гитаристов BassLife подкасты



Судя по письмам, многих из вас интересует, как строить и играть аккорды на бас гитаре. Сегодня мы подробно рассмотрим этот вопрос.

Примечание: Ниже изложены основы адаптированные под четырехструнную бас гитару. Более подробную теорию построения и использования аккордов применительно к шестиструнной акустической гитаре можно найти на сайте наших друзей www.7not.ru.

Важнейшие Аккорды

Существует 4-5 наиболее распространенных в современной музыке аккордов. Ниже приведены варианты этих аккордов для основной ноты C.


    C           Cm          Cmaj7       
G|--0------0-|--0------0-|--0------0-4-|
D|--2----2---|--1----1---|--2----2-----|
A|--3--3-----|--3--3-----|--3--3-------|
E|-----------|-----------|-------------|


    C7            Cm7         
G|--3------0-3-|--3------0-3-|
D|--2----2-----|--1----1-----|
A|--3--3-------|--3--3-------|
E|-------------|-------------|

Как видите, играть все это на шестиструнной гитаре достаточно сложно. На следующем рисунке показано расположение важнейших нот для случая, когда основная нота находится на струне E.


G  --|----|----|----|-m3-|-3v-|----|--
D --|-5--|----|----|----|----|-Rv-|--
A --|----|-m3-|-3--|----|----|-5--|--
E --|----|----|----|-R--|----|----|--

Здесь 'R'-основная нота аккорда. 'm' означает минор, 'v' - нота на октаву выше. Имейте в виду, что когда играете эти ноты последовательно, то получаете "шагающую" басовую линию.

Октавы и Квинты

При игре аккордов всегда можно играть октавы и почти всегда квинты (за исключением нескольких джазовых аккордов). Мы уже затрагивали тему игры октав и квинт. Для того чтобы получить аккорд надо сыграть эти ноты одновременно. Вам не придется играть квинты вниз, поскольку самой низкой нотой в аккорде является основная нота.

Как вам известно из урока 3, квинта и октава находятся на два лада выше по грифу от основной ноты, на двух следующих струнах. Попробуйте сыграть большим и указательным пальцами следующие последовательности.


G|-----5--7--|------10--12--|--5--6--7--|
D|--5--3--5--|--10----------|-----------|
A|--3--------|------8---10--|--3--4--5--|
E|-----------|--8-----------|-----------|

Терции

Мажорные и минорные терции не получили такого широкого распространения, как квинта и октава, однако они часто добавляются к основному тону в балладах. Важно помнить, что чем ниже Вы играете, тем более диссонирующим (неустойчиво) звучит аккорд. Попробуйте играть терции, как показано ниже. Даже если ваша мелодия совершенна, при игре терции вниз создается ощущение неудовлетворенности. Сыграйте октаву вверх, и все будет нормально.


   Играем вниз   Играем вверх 
G|-------------|--------9----|
D|-------2-----|---10--------|
A|---3---------|-------------|
E|-------------|-------------|

Звенящие Ноты

Еще один способ играть аккорды состоит в том, чтобы позволить первой ноте звенеть, в то время как вы уже играете вторую ноту. И снова октава проявляет себя лучше других нот. Сыграйте следующий риф, но не глушите ноту, когда играете октаву. Этот прием работает хорошо при игре нот на открытых струнах. Для других нот вам, вероятно, придется изменить способ щипка струны, чтобы избежать глушения.

Звенящий октавный риф.

G|----2-4-5--|----2-4-4--|----2-4-2-0-2--|
D|-----------|-----------|---------------|
A|--0--------|--0--------|--0------------|
E|-----------|-----------|---------------|

Проходные Ноты

Другим способом является использование проходных нот для построения аккорда. Здесь при игре перехода от F к C, вы можете играть G в качестве проходной ноты, позволяя ей свободно звучать. Этот прием может добавлять различные оттенки аккорду.

Еще один риф

G|-----------|-----------|----|
D|-3-3-3-3-5-|-5-------0-|-3--|
A|-----------|-3-----3---|----|
E|-----------|-----------|----|

Walk on the Wild Side

Позвольте рассказать вам еще об одном интересном приеме, который используется в песне "Walk on the Wild Side" Lou Reed-а. В этой песне фактически два баса играют контрапунктирующие мелодии. Они отталкиваются от основной ноты и от терции, и один двигается вверх, а другой вниз. Это очень сложно воспроизвести на одной бас гитаре. Однако есть один простой способ, которым пользуются большинство музыкантов. Играются одновременно две ноты: первая и десятая ноты гаммы (основная, октава+терция). Игра такого аккорда не потребует от вас больших усилий.

Thw Wild Side - Lou Reed

   E        A      E        A      E  F#   A B   E   
G|-13-13-\|-6-6-/|-13-13-\|-6-6-/|-13-15-|-6-8-|-13-|
D|--------|------|--------|------|-------|-----|----|
A|--------|------|--------|------|-------|-----|----|
E|-12-12--|-5-5--|-12-12--|-5-5--|-12-14-|-5-7-|-12-|

Подведем итог. Конечно, не плохо знать, как строятся аккорды. Вы даже можете получать удовольствие, играя их. Будьте осторожны, добавляя более низкие ноты, и вдвойне осторожны при добавлении терций. Не бойтесь использовать звенящие и проходные ноты без глушения. Позвольте гитаре звучать!

Это был последний урок цикла. Надеюсь, Вы почерпнули для себя много полезного.


Youtube VK Twitter






Rambler's Top100