Сайт для бас гитаристов
Новости о бас гитаре Уроки для бас гитаристов Статьи на басовые темы Форум для бас гитаристов BassLife подкасты



Уроки слэпа. Jim Stinnet. Часть 2


В этой серии уроков Jim показывает простую и распространенную технику слэпа. Сначала он большим пальцем правой руки делает удар по струне A, затем средним пальцем левой руки резко прижимает эту струну на пятом ладу, затем большим пальцем правой руки делает еще один удар. И так по кругу.

    S   S  
E-----------|
A---0h5-5---|
D-----------|
G-----------|

Видеоролик для левой руки (352Kb)
Видеоролик для правой руки (352Kb)

Добавим сюда Pop: после второго Slap удара поддеваем указательным пальцем струну G с дергаем вверх.

    S   S       S   S       S   S       S   S
E-----------|-----------|-----------|-----------|
A---0h5-5---|---0h5-5---|---0h5-5---|---0h5-5---|
D-----------|-----------|-----------|-----------|
G-----------|-----------|-----------|-----------|

S S P S S P
E-----------|-----------|
A---0h5-5---|---0h5-5---|
D-----------|-----------|
G---------7-|---------5-|

S S P S S P S S P
E-----------|-----------|-----------|
A---0h5-5---|---0h5-5---|---0h5-5---|
D-----------|-----------|-----------|
G---------5-|---------5-|---------5-|

S S P S S P S S P
E-----------|-----------|-----------|
A---0h5-5---|---0h5-5---|---0h5-5---|
D-----------|-----------|-----------|
G---------7-|---------7-|---------7-|

Видеоролик 3 (352Kb)

                                                          
G||---------------------------|--------------------------|
D||*-----7-----x-----x--------|-----x-----------x--------|
A||---------------------------|--------------------3h-5--|
E||*--5-----x-----x-----2/-3--|--x-----3h-5--x-----------|

G|--------------------------|------------------------||
D|-----7-----x-----x--------|-----5--------3--------*||
A|--------------------------|------------------------||
E|--5-----x-----x-----2/-3--|--x-----3h-5-----------*||

G|----------------4-----4----|-----5-----5-------------||
D|-----x---------------------|-------------------------||
A|-------------2-----2-------|--3-----3-------6/-------||
E|--x-----2------------------|-------------------------||

На этом пока все. Желаю удачно провести время.

Оригинальные ролики: http://www.jimstinnett.com
Комментарии: Alex[BL]



Youtube VK Twitter






Rambler's Top100