Сайт для бас гитаристов
Новости о бас гитаре Уроки для бас гитаристов Статьи на басовые темы Форум для бас гитаристов BassLife подкасты



Bob Daisley. Урок 3 - Блюзовые рифы


Блюзовые рифы

Этот урок посвящен написанию блюзовых рифов. Я познакомлю Вас с трехграммовой прогрессией и покажу, как ее использовать на примере песни "New Old Lady Blues". Басисту очень важно понять, как все это работает. Прежде чем начинать импровизировать, или воплощать свои идеи в жизнь, надо знать некоторые азы музыкальной теории.

Часть 1 / Основная Схема

Первая часть этого урока посвящена собственно трехграммовой прогрессии. Основой схемы является использование первого, четвертого и пятого интервалов мажорной гаммы (основной, квартовый и квинтовый тон). Эти 3 ноты - тонические, то есть для каждой из этих нот можно построить гамму. Например: E - тоническая нота гаммы E, A - гаммы A, а B - гаммы B. Теперь посмотрите на гамму E мажор

   E  F# G# A   B  C# D# E   E  A  B  
G:------------|------------|---------|
D:------------|-------1--2-|---------|
A:----------0-|-2--4-------|----0--2-|
E:-0--2--4----|------------|-0-------|

При создании основной схемы Вы можете выбрать эти три ноты (E, A, B) в качестве основы, а уже потом развивать ее дальше, используя мажорные и(или) минорные гаммы. В основе песни "New Old Lady Blues" лежат пентатонные минорные гаммы:

  E Пентатонная A Пентатонная B Пентатонная
E G A B D E A C D E G A B D E F# A B
G:-------------|-------------|---------------|
D:-------------|---------5-7-|-----------7-9-|
A:---------5-7-|-----5-7-----|------7-9------|
E:-0-3-5-7-----|-5-8---------|-7-10----------|

Часть 2 / Простейшая Аранжировка

Наиболее Простой аранжировкой этой схемы является игра гамм по порядку. Рассмотрим басовый риф песни "New Old Lady Blues". Он построен на основе трехгаммовой прогрессии: E,A,E, B,A,E.

                New Old Lady Blues
E
G:----------------|------------|---------------|
D:----------------|------------|---------------|
A:---7-7-5--5-----|--------7-7-|-5---5---------|
E:-0------7---7-5-|-3-5--0-----|---7---7-5-3-5-|

G:----------------|------------|---------------|
D:----------------|------------|---------------|
A:---7-7-5--5-----|--------7-7-|-5---5---------|
E:-0------7---7-5-|-3-5--0-----|---7---7-5-3-5-|

A
G:---------------|---------------|-------------|
D:---7-7-5---5---|---------7-7-5-|---5---------|
A:---------7---7-|---------------|-7---7-------|
E:-5-------------|-8-10--5-------|--------8-10-|

E
G:----------------|------------|---------------|
D:----------------|------------|---------------|
A:---7-7-5--5-----|--------7-7-|-5---5---------|
E:-0------7---7-5-|-3-5--0-----|---7---7-5-3-5-|

B A
G:---------------|--------------|--------------|
D:---9-9-7---7---|----------7-7-|-5---5--------|
A:---------9---9-|--------------|---7---7------|
E:-7-------------|-10-12--5-----|---------8-10-|

E
G:----------------|------------|---------------|
D:----------------|------------|---------------|
A:---7-7-5--5-----|--------7-7-|-5---5---------|
E:-0------7---7-5-|-3-5--0-----|---7---7-5-3-5-|

На этом разрешите закончить



Youtube VK Twitter






Rambler's Top100